Author Topic: ST-376 • Sweet Child 'O Mine - Guns 'N' Roses [INTRO]  (Read 695 times)

0 Members and 1 Guest are viewing this topic.

Offline Indigo

  • Administrator
  • Arena Rocker
  • *****
  • Posts: 573
  • Good Vibes 3

Offline w_ww_me

  • School Prom Hero
  • **
  • Posts: 62
  • Good Vibes 2
  • Almost finished the Beginners Course
Re: ST-376 • Sweet Child 'O Mine - Guns 'N' Roses [INTRO]
« Reply #1 on: September 24, 2017, 08:27:53 pm »
Is this the tab for lesson 1?

6|------------------
5|------------------
4|-------12---------
3|-------------14-12
2|----------15------
1|------------------


6|------------------
5|------------------
4|------------------
3|----------14----14
2|------------------
1|-------15----14---

1st finger 12th fret 4th string
3rd finger 15th fret 2nd string
2nd finger 14th fret 3rd string
1st finger 12th fret 3rd string


3rd finger 15th fret 1st string
2nd finger 14th fret 3rd string
3rd finger 14th fret 1st string
2nd finger 14th fret 3rd string

Picking Pattern:

d u u u u d u d

d u u u u d u d 

I cannae be doing with watching and trying to copy what I see and hear. My brain turns to mush. I need to see it written down.


Offline w_ww_me

  • School Prom Hero
  • **
  • Posts: 62
  • Good Vibes 2
  • Almost finished the Beginners Course
Re: ST-376 • Sweet Child 'O Mine - Guns 'N' Roses [INTRO]
« Reply #2 on: September 28, 2017, 03:54:53 pm »
Is this the rest of the tab from lesson #1?

6|------------------
5|------------------
4|-------14---------
3|-------------14-12
2|----------15------
1|------------------


6|------------------
5|------------------
4|------------------
3|-------12---14----14
2|------------------
1|---------------14---


 

Get The Forum As A Mobile App